  0
SECTION
  2
HEADER
  9
$ACADVER
  1
AC1009
  9
$INSBASE
 10
0.000000
 20
0.000000
  9
$EXTMIN
 10
0.000000
 20
0.000000
  9
$EXTMAX
 10
420.000000
 20
297.000000
  9
$LIMMIN
 10
0.000000
 20
0.000000
  9
$LIMMAX
 10
420.000000
 20
297.000000
  9
$VIEWCTR
 10
210.000000
 20
148.500000
  9
$VIEWSIZE
 40
297.000000
  9
$PEXTMIN
 10
0.000000
 20
0.000000
 30
0.000000
  9
$PEXTMAX
 10
420.000000
 20
297.000000
 30
0.000000
  9
$SNAPMODE
 70
     0
  9
$SNAPUNIT
 10
1.000000
 20
1.000000
  9
$SNAPBASE
 10
0.000000
 20
0.000000
  9
$SNAPANG
 50
0.000000
  9
$SNAPISOPAIR
 70
     0
  9
$SNAPSTYLE
 70
     0
  9
$GRIDMODE
 70
     0
  9
$GRIDUNIT
 10
0.000000
 20
0.000000
  9
$ORTHOMODE
 70
     0
  9
$REGENMODE
 70
     1
  9
$FILLMODE
 70
     1
  9
$QTEXTMODE
 70
     0
  9
$DRAGMODE
 70
     2
  9
$LTSCALE
 40
0.250000
  9
$OSMODE
 70
     0
  9
$ATTMODE
 70
     1
  9
$TEXTSIZE
 40
5.000000
  9
$TRACEWID
 40
0.050000
  9
$TEXTSTYLE
  7
STANDARD
  9
$CLAYER
  8
0
  9
$CELTYPE
  6
BYLAYER
  9
$CECOLOR
 62
   256
  9
$DIMSCALE
 40
1.000000
  9
$DIMASZ
 40
1.000000
  9
$DIMEXO
 40
0.000000
  9
$DIMDLI
 40
0.500000
  9
$DIMRND
 40
0.000000
  9
$DIMDLE
 40
0.000000
  9
$DIMEXE
 40
0.000000
  9
$DIMTP
 40
0.000000
  9
$DIMTM
 40
0.000000
  9
$DIMTXT
 40
4.000000
  9
$DIMCEN
 40
0.000000
  9
$DIMTSZ
 40
0.000000
  9
$DIMTOL
 70
     0
  9
$DIMLIM
 70
     0
  9
$DIMTIH
 70
     1
  9
$DIMTOH
 70
     1
  9
$DIMSE1
 70
     0
  9
$DIMSE2
 70
     0
  9
$DIMTAD
 70
     0
  9
$DIMZIN
 70
     0
  9
$DIMBLK
  1

  9
$DIMASO
 70
     0
  9
$DIMSHO
 70
     0
  9
$DIMPOST
  1

  9
$DIMAPOST
  1

  9
$DIMALT
 70
     0
  9
$DIMALTD
 70
     0
  9
$DIMALTF
 40
25.400000
  9
$DIMLFAC
 40
1.000000
  9
$DIMTOFL
 70
     0
  9
$DIMTVP
 40
0.000000
  9
$DIMTIX
 70
     0
  9
$DIMSOXD
 70
     0
  9
$DIMSAH
 70
     0
  9
$DIMBLKL
  1

  9
$DIMBLKR
  1

  9
$LUNITS
 70
     2
  9
$LUPREC
 70
     2
  9
$AXISMODE
 70
     0
  9
$AXISUNIT
 10
1.000000
 20
1.000000
  9
$SKETCHINC
 40
0.000000
  9
$FILLETRAD
 40
0.000000
  9
$AUNITS
 70
     1
  9
$AUPREC
 70
     2
  9
$MENU
  1
ACAD
  9
$ELEVATION
 40
0.000000
  9
$THICKNESS
 40
0.000000
  9
$VIEWDIR
 10
0.000000
 20
0.000000
 30
1.000000
  9
$LIMCHECK
 70
     1
  9
$BLIPMODE
 70
     1
  9
$CHAMFERA
 40
0.000000
  9
$CHAMFERB
 40
0.000000
  9
$FASTZOOM
 70
     1
  9
$SKPOLY
 70
     0
  9
$TDCREATE
 40
0.000000
  9
$TDUPDATE
 40
0.000000
  9
$TDINDWG
 40
0.000000
  9
$TDUSRTIMER
 40
0.000000
  9
$USRTIMER
 70
     1
  9
$ANGBASE
 50
0.000000
  9
$ANGDIR
 70
     0
  9
$PDMODE
 70
     0
  9
$PDSIZE
 40
0.000000
  9
$PLINEWID
 40
0.000000
  9
$COORDS
 70
     2
  9
$USERI1
 70
     0
  9
$USERI2
 70
     0
  9
$USERI3
 70
     0
  9
$USERI4
 70
     0
  9
$USERI5
 70
     0
  9
$USERR1
 40
0.000000
  9
$USERR2
 40
0.000000
  9
$USERR3
 40
0.000000
  9
$USERR4
 40
0.000000
  9
$USERR5
 40
0.000000
  0
ENDSEC
  0
SECTION
  2
TABLES
  0
TABLE
  2
LTYPE
 70
     5
  0
LTYPE
  2
CONTINUOUS
 70
    64
  3
Solid line
 72
    65
 73
     0
 40
0.0
  0
LTYPE
  2
HIDDEN
 70
    64
  3
------------------------
 72
    65
 73
     2
 40
12.6
 49
8.4
 49
-4.2
  0
LTYPE
  2
DOT
 70
    64
  3
････････････････････････
 72
    65
 73
     2
 40
8.0
 49
6.0
 49
-2.0
  0
LTYPE
  2
DASHDOT
 70
    64
  3
--･--･--･--･--･--･--･--
 72
    65
 73
     4
 40
50.5
 49
30.0
 49
-9.0
 49
2.5
 49
-9.0
  0
LTYPE
  2
DIVIDE
 70
    64
  3
--･･--･･--･･--･･--･･--
 72
    65
 73
     6
 40
58.0
 49
30.0
 49
-9.0
 49
2.5
 49
-5.0
 49
2.5
 49
-9.0
  0
LTYPE
  2
ACAD_ISO06W100
 70
    64
  3
____ ... ____ ... ____
 72
    65
 73
     8
 40
37.5
 49
24.0
 49
-3.0
 49
0.5
 49
-3.0
 49
0.5
 49
-3.0
 49
0.5
 49
-3.0
  0
LTYPE
  2
ACAD_ISO14W100
 70
    64
  3
__ . . . __ . . . __ . . . 
 72
    65
 73
     8
 40
25.5
 49
12.0
 49
-3.0
 49
0.5
 49
-3.0
 49
0.5
 49
-3.0
 49
0.5
 49
-3.0
  0
ENDTAB
  0
TABLE
  2
LAYER
 70
1
  0
LAYER
  2
22
 70
64
 62
7
  6
CONTINUOUS
  0
ENDTAB
  0
TABLE
  2
STYLE
 70
     2
  0
STYLE
  2
STANDARD
 70
    64
 40
0.0
 41
1.0
 50
0.0
 71
     0
 42
0.2
  3
TXT
  4

  0
STYLE
  2
KANJI
 70
    64
 40
0.0
 41
1.0
 50
0.0
 71
     0
 42
0.2
  3
TXT
  4
BIGFONT
  0
ENDTAB
  0
TABLE
  2
VIEW
 70
     0
  0
ENDTAB
  0
ENDSEC
  0
SECTION
  2
BLOCKS
  0
ENDSEC
  0
SECTION
  2
ENTITIES
  0
LINE
  8
22
 62
7
  6
CONTINUOUS
 10
186.761566
 20
172.056032
 11
182.761566
 21
172.056032
  0
LINE
  8
22
 62
7
  6
CONTINUOUS
 10
182.761566
 20
162.056032
 11
186.761566
 21
162.056032
  0
LINE
  8
22
 62
7
  6
CONTINUOUS
 10
201.718261
 20
172.856032
 11
201.718261
 21
161.256032
  0
LINE
  8
22
 62
7
  6
CONTINUOUS
 10
199.718261
 20
161.256032
 11
199.718261
 21
172.856032
  0
LINE
  8
22
 62
7
  6
CONTINUOUS
 10
209.718261
 20
172.856032
 11
209.718261
 21
161.256032
  0
LINE
  8
22
 62
7
  6
CONTINUOUS
 10
207.718261
 20
161.256032
 11
207.718261
 21
172.856032
  0
LINE
  8
22
 62
7
  6
CONTINUOUS
 10
187.761566
 20
174.612153
 11
187.761566
 21
159.499912
  0
LINE
  8
22
 62
7
  6
CONTINUOUS
 10
205.718261
 20
172.856032
 11
205.718261
 21
161.256032
  0
LINE
  8
22
 62
7
  6
CONTINUOUS
 10
203.718261
 20
161.256032
 11
203.718261
 21
172.856032
  0
LINE
  8
22
 62
7
  6
CONTINUOUS
 10
186.761566
 20
159.499912
 11
187.761566
 21
159.499912
  0
LINE
  8
22
 62
7
  6
CONTINUOUS
 10
187.703874
 20
158.501578
 11
187.761566
 21
159.499912
  0
LINE
  8
22
 62
7
  6
CONTINUOUS
 10
187.761566
 20
174.612153
 11
186.761566
 21
174.612153
  0
LINE
  8
22
 62
7
  6
CONTINUOUS
 10
187.761566
 20
174.612153
 11
187.703874
 21
175.610487
  0
LINE
  8
22
 62
7
  6
CONTINUOUS
 10
186.761566
 20
159.499912
 11
186.761566
 21
174.612153
  0
LINE
  8
22
 62
7
  6
CONTINUOUS
 10
181.761566
 20
163.056032
 11
181.761566
 21
171.056032
  0
LINE
  8
22
 62
7
  6
CONTINUOUS
 10
105.193165
 20
172.806032
 11
105.193165
 21
161.306032
  0
LINE
  8
22
 62
7
  6
CONTINUOUS
 10
104.193165
 20
162.306032
 11
104.193165
 21
171.806032
  0
LINE
  8
22
 62
7
  6
CONTINUOUS
 10
92.693165
 20
163.306032
 11
92.693165
 21
170.806032
  0
LINE
  8
22
 62
7
  6
CONTINUOUS
 10
104.193165
 20
170.806032
 11
92.693165
 21
170.806032
  0
LINE
  8
22
 62
7
  6
CONTINUOUS
 10
92.993165
 20
171.106032
 11
92.993165
 21
163.006032
  0
LINE
  8
22
 62
7
  6
CONTINUOUS
 10
92.693165
 20
163.306032
 11
104.193165
 21
163.306032
  0
LINE
  8
22
 62
7
  6
CONTINUOUS
 10
104.193165
 20
163.006032
 11
92.993165
 21
163.006032
  0
LINE
  8
22
 62
7
  6
CONTINUOUS
 10
92.993165
 20
171.106032
 11
104.193165
 21
171.106032
  0
LINE
  8
22
 62
7
  6
CONTINUOUS
 10
182.761566
 20
172.056032
 11
182.761566
 21
162.056032
  0
LINE
  8
22
 62
7
  6
CONTINUOUS
 10
180.761566
 20
164.806032
 11
180.761566
 21
169.306032
  0
ARC
  8
22
 62
7
  6
CONTINUOUS
 10
182.761566
 20
163.056032
 40
1.000000
 50
180.000000
 51
-90.000000
  0
ARC
  8
22
 62
7
  6
CONTINUOUS
 10
182.761566
 20
171.056032
 40
1.000000
 50
90.000000
 51
180.000000
  0
ARC
  8
22
 62
7
  6
CONTINUOUS
 10
180.761566
 20
163.806032
 40
1.000000
 50
0.000000
 51
90.000000
  0
ARC
  8
22
 62
7
  6
CONTINUOUS
 10
180.761566
 20
170.306032
 40
1.000000
 50
-90.000000
 51
0.000000
  0
ARC
  8
22
 62
7
  6
CONTINUOUS
 10
200.718261
 20
172.856032
 40
1.000000
 50
0.000000
 51
180.000000
  0
ARC
  8
22
 62
7
  6
CONTINUOUS
 10
200.718261
 20
161.256032
 40
1.000000
 50
180.000000
 51
0.000000
  0
ARC
  8
22
 62
7
  6
CONTINUOUS
 10
208.718261
 20
172.856032
 40
1.000000
 50
0.000000
 51
180.000000
  0
ARC
  8
22
 62
7
  6
CONTINUOUS
 10
208.718261
 20
161.256032
 40
1.000000
 50
180.000000
 51
0.000000
  0
ARC
  8
22
 62
7
  6
CONTINUOUS
 10
204.718261
 20
172.856032
 40
1.000000
 50
0.000000
 51
180.000000
  0
ARC
  8
22
 62
7
  6
CONTINUOUS
 10
204.718261
 20
161.256032
 40
1.000000
 50
180.000000
 51
0.000000
  0
ARC
  8
22
 62
7
  6
CONTINUOUS
 10
187.761566
 20
159.499912
 40
1.000000
 50
180.000000
 51
-93.307362
  0
ARC
  8
22
 62
7
  6
CONTINUOUS
 10
187.761566
 20
174.612153
 40
1.000000
 50
93.307362
 51
180.000000
  0
ARC
  8
22
 62
7
  6
CONTINUOUS
 10
105.193165
 20
171.806032
 40
1.000000
 50
90.000000
 51
180.000000
  0
ARC
  8
22
 62
7
  6
CONTINUOUS
 10
105.193165
 20
162.306032
 40
1.000000
 50
180.000000
 51
-90.000000
  0
ARC
  8
22
 62
7
  6
CONTINUOUS
 10
92.993165
 20
163.306032
 40
0.300000
 50
180.000000
 51
-90.000000
  0
ARC
  8
22
 62
7
  6
CONTINUOUS
 10
92.993165
 20
170.806032
 40
0.300000
 50
90.000000
 51
180.000000
  0
LINE
  8
22
 62
7
  6
CONTINUOUS
 10
137.193165
 20
170.556032
 11
132.693165
 21
170.556032
  0
LINE
  8
22
 62
7
  6
CONTINUOUS
 10
132.693165
 20
163.556032
 11
137.193165
 21
163.556032
  0
LINE
  8
22
 62
7
  6
CONTINUOUS
 10
180.761566
 20
169.306032
 11
137.693165
 21
169.306032
  0
LINE
  8
22
 62
7
  6
CONTINUOUS
 10
137.693165
 20
164.806032
 11
180.761566
 21
164.806032
  0
LINE
  8
22
 62
7
  6
CONTINUOUS
 10
137.693165
 20
170.056032
 11
137.693165
 21
164.056032
  0
LINE
  8
22
 62
7
  6
CONTINUOUS
 10
131.693165
 20
162.306032
 11
128.993165
 21
162.306032
  0
LINE
  8
22
 62
7
  6
CONTINUOUS
 10
128.993165
 20
163.306032
 11
128.993165
 21
162.306032
  0
LINE
  8
22
 62
7
  6
CONTINUOUS
 10
128.993165
 20
163.306032
 11
132.693165
 21
163.306032
  0
LINE
  8
22
 62
7
  6
CONTINUOUS
 10
127.261114
 20
171.806032
 11
104.193165
 21
171.806032
  0
LINE
  8
22
 62
7
  6
CONTINUOUS
 10
105.193165
 20
172.806032
 11
127.261114
 21
172.806032
  0
LINE
  8
22
 62
7
  6
CONTINUOUS
 10
127.261114
 20
172.806032
 11
127.261114
 21
171.806032
  0
LINE
  8
22
 62
7
  6
CONTINUOUS
 10
128.127140
 20
172.306032
 11
127.261114
 21
171.806032
  0
LINE
  8
22
 62
7
  6
CONTINUOUS
 10
127.261114
 20
162.306032
 11
128.127140
 21
161.806032
  0
LINE
  8
22
 62
7
  6
CONTINUOUS
 10
104.193165
 20
162.306032
 11
127.261114
 21
162.306032
  0
LINE
  8
22
 62
7
  6
CONTINUOUS
 10
127.261114
 20
162.306032
 11
127.261114
 21
161.306032
  0
LINE
  8
22
 62
7
  6
CONTINUOUS
 10
127.261114
 20
161.306032
 11
105.193165
 21
161.306032
  0
LINE
  8
22
 62
7
  6
CONTINUOUS
 10
132.693165
 20
170.806032
 11
128.993165
 21
170.806032
  0
LINE
  8
22
 62
7
  6
CONTINUOUS
 10
131.693165
 20
162.306032
 11
131.693165
 21
171.806032
  0
LINE
  8
22
 62
7
  6
CONTINUOUS
 10
128.993165
 20
171.806032
 11
128.993165
 21
170.806032
  0
LINE
  8
22
 62
7
  6
CONTINUOUS
 10
128.993165
 20
171.806032
 11
131.693165
 21
171.806032
  0
LINE
  8
22
 62
7
  6
CONTINUOUS
 10
132.693165
 20
170.806032
 11
132.693165
 21
163.306032
  0
LINE
  8
22
 62
7
  6
CONTINUOUS
 10
137.193165
 20
163.556032
 11
137.193165
 21
170.556032
  0
ARC
  8
22
 62
7
  6
CONTINUOUS
 10
137.193165
 20
164.056032
 40
0.500000
 50
-90.000000
 51
0.000000
  0
ARC
  8
22
 62
7
  6
CONTINUOUS
 10
137.193165
 20
170.056032
 40
0.500000
 50
0.000000
 51
90.000000
  0
ARC
  8
22
 62
7
  6
CONTINUOUS
 10
127.261114
 20
171.806032
 40
1.000000
 50
30.000000
 51
90.000000
  0
ARC
  8
22
 62
7
  6
CONTINUOUS
 10
128.993165
 20
161.306032
 40
2.000000
 50
90.000000
 51
150.000000
  0
ARC
  8
22
 62
7
  6
CONTINUOUS
 10
128.993165
 20
161.306032
 40
1.000000
 50
90.000000
 51
150.000000
  0
ARC
  8
22
 62
7
  6
CONTINUOUS
 10
131.693165
 20
170.806032
 40
1.000000
 50
0.000000
 51
90.000000
  0
ARC
  8
22
 62
7
  6
CONTINUOUS
 10
128.993165
 20
172.806032
 40
1.000000
 50
-150.000000
 51
-90.000000
  0
ARC
  8
22
 62
7
  6
CONTINUOUS
 10
128.993165
 20
172.806032
 40
2.000000
 50
-150.000000
 51
-90.000000
  0
ARC
  8
22
 62
7
  6
CONTINUOUS
 10
131.693165
 20
163.306032
 40
1.000000
 50
-90.000000
 51
0.000000
  0
ARC
  8
22
 62
7
  6
CONTINUOUS
 10
127.261114
 20
162.306032
 40
1.000000
 50
-90.000000
 51
-30.000000
  0
LINE
  8
22
 62
7
  6
CONTINUOUS
 10
215.761566
 20
149.806032
 11
215.761566
 21
184.306032
  0
LINE
  8
22
 62
7
  6
CONTINUOUS
 10
216.761566
 20
176.056032
 11
212.790437
 21
176.056032
  0
LINE
  8
22
 62
7
  6
CONTINUOUS
 10
216.761566
 20
183.306032
 11
216.761566
 21
150.806032
  0
LINE
  8
22
 62
7
  6
CONTINUOUS
 10
212.790437
 20
158.056032
 11
216.761566
 21
158.056032
  0
LINE
  8
22
 62
7
  6
CONTINUOUS
 10
187.761566
 20
159.499912
 11
212.790437
 21
158.056032
  0
LINE
  8
22
 62
7
  6
CONTINUOUS
 10
212.790437
 20
176.056032
 11
187.761566
 21
174.612153
  0
LINE
  8
22
 62
7
  6
CONTINUOUS
 10
212.761566
 20
149.806032
 11
212.761566
 21
158.057269
  0
LINE
  8
22
 62
7
  6
CONTINUOUS
 10
212.790437
 20
158.056032
 11
212.761566
 21
158.057269
  0
LINE
  8
22
 62
7
  6
CONTINUOUS
 10
212.761566
 20
149.806032
 11
215.761566
 21
149.806032
  0
LINE
  8
22
 62
7
  6
CONTINUOUS
 10
212.761566
 20
176.054795
 11
212.790437
 21
176.056032
  0
LINE
  8
22
 62
7
  6
CONTINUOUS
 10
215.761566
 20
184.306032
 11
212.761566
 21
184.306032
  0
LINE
  8
22
 62
7
  6
CONTINUOUS
 10
212.761566
 20
176.054795
 11
212.761566
 21
184.306032
  0
LINE
  8
22
 62
7
  6
CONTINUOUS
 10
187.703874
 20
175.610487
 11
212.761566
 21
177.056032
  0
LINE
  8
22
 62
7
  6
CONTINUOUS
 10
212.761566
 20
157.056032
 11
187.703874
 21
158.501578
  0
LINE
  8
22
 62
7
  6
CONTINUOUS
 10
217.461566
 20
173.056032
 11
216.761566
 21
173.056032
  0
LINE
  8
22
 62
7
  6
CONTINUOUS
 10
217.461566
 20
161.056032
 11
217.461566
 21
173.056032
  0
LINE
  8
22
 62
7
  6
CONTINUOUS
 10
217.461566
 20
161.056032
 11
216.761566
 21
161.056032
  0
LINE
  8
22
 62
7
  6
CONTINUOUS
 10
217.761566
 20
172.756032
 11
217.761566
 21
161.356032
  0
ARC
  8
22
 62
7
  6
CONTINUOUS
 10
215.761566
 20
183.306032
 40
1.000000
 50
0.000000
 51
90.000000
  0
ARC
  8
22
 62
7
  6
CONTINUOUS
 10
215.761566
 20
150.806032
 40
1.000000
 50
-90.000000
 51
0.000000
  0
ARC
  8
22
 62
7
  6
CONTINUOUS
 10
217.461566
 20
161.356032
 40
0.300000
 50
-90.000000
 51
0.000000
  0
ARC
  8
22
 62
7
  6
CONTINUOUS
 10
217.461566
 20
172.756032
 40
0.300000
 50
0.000000
 51
90.000000
  0
CIRCLE
  8
22
 62
7
  6
CONTINUOUS
 10
252.072579
 20
153.556032
 40
1.500000
  0
CIRCLE
  8
22
 62
7
  6
CONTINUOUS
 10
252.072579
 20
180.556032
 40
1.500000
  0
LINE
  8
22
 62
7
  6
CONTINUOUS
 10
250.872579
 20
164.356032
 11
253.272579
 21
164.356032
  0
LINE
  8
22
 62
7
  6
CONTINUOUS
 10
253.272579
 20
164.356032
 11
253.572579
 21
164.056032
  0
LINE
  8
22
 62
7
  6
CONTINUOUS
 10
253.572579
 20
164.056032
 11
250.572579
 21
164.056032
  0
LINE
  8
22
 62
7
  6
CONTINUOUS
 10
250.572579
 20
164.056032
 11
250.872579
 21
164.356032
  0
LINE
  8
22
 62
7
  6
CONTINUOUS
 10
253.272579
 20
164.356032
 11
253.272579
 21
169.756032
  0
LINE
  8
22
 62
7
  6
CONTINUOUS
 10
253.272579
 20
169.756032
 11
253.572579
 21
170.056032
  0
LINE
  8
22
 62
7
  6
CONTINUOUS
 10
253.572579
 20
170.056032
 11
253.572579
 21
164.056032
  0
LINE
  8
22
 62
7
  6
CONTINUOUS
 10
250.572579
 20
164.056032
 11
250.572579
 21
170.056032
  0
LINE
  8
22
 62
7
  6
CONTINUOUS
 10
250.572579
 20
170.056032
 11
250.872579
 21
169.756032
  0
LINE
  8
22
 62
7
  6
CONTINUOUS
 10
250.872579
 20
169.756032
 11
250.872579
 21
164.356032
  0
LINE
  8
22
 62
7
  6
CONTINUOUS
 10
253.272579
 20
169.756032
 11
250.872579
 21
169.756032
  0
LINE
  8
22
 62
7
  6
CONTINUOUS
 10
250.572579
 20
170.056032
 11
253.572579
 21
170.056032
  0
LINE
  8
22
 62
7
  6
CONTINUOUS
 10
248.322579
 20
169.956032
 11
248.322579
 21
164.156032
  0
LINE
  8
22
 62
7
  6
CONTINUOUS
 10
248.322579
 20
164.156032
 11
248.022579
 21
164.052419
  0
LINE
  8
22
 62
7
  6
CONTINUOUS
 10
248.022579
 20
164.052419
 11
248.022579
 21
170.059646
  0
LINE
  8
22
 62
7
  6
CONTINUOUS
 10
248.022579
 20
170.059646
 11
248.322579
 21
169.956032
  0
LINE
  8
22
 62
7
  6
CONTINUOUS
 10
248.322579
 20
164.156032
 11
249.322579
 21
162.881032
  0
LINE
  8
22
 62
7
  6
CONTINUOUS
 10
249.322579
 20
162.881032
 11
249.176608
 21
162.581032
  0
LINE
  8
22
 62
7
  6
CONTINUOUS
 10
249.176608
 20
162.581032
 11
248.022579
 21
164.052419
  0
LINE
  8
22
 62
7
  6
CONTINUOUS
 10
248.022579
 20
170.059646
 11
249.176608
 21
171.531032
  0
LINE
  8
22
 62
7
  6
CONTINUOUS
 10
249.176608
 20
171.531032
 11
249.322579
 21
171.231032
  0
LINE
  8
22
 62
7
  6
CONTINUOUS
 10
249.322579
 20
171.231032
 11
248.322579
 21
169.956032
  0
LINE
  8
22
 62
7
  6
CONTINUOUS
 10
249.322579
 20
162.881032
 11
255.822579
 21
162.881032
  0
LINE
  8
22
 62
7
  6
CONTINUOUS
 10
255.822579
 20
162.881032
 11
256.122579
 21
162.581032
  0
LINE
  8
22
 62
7
  6
CONTINUOUS
 10
256.122579
 20
162.581032
 11
249.176608
 21
162.581032
  0
LINE
  8
22
 62
7
  6
CONTINUOUS
 10
249.176608
 20
171.531032
 11
256.122579
 21
171.531032
  0
LINE
  8
22
 62
7
  6
CONTINUOUS
 10
256.122579
 20
171.531032
 11
255.822579
 21
171.231032
  0
LINE
  8
22
 62
7
  6
CONTINUOUS
 10
255.822579
 20
171.231032
 11
249.322579
 21
171.231032
  0
LINE
  8
22
 62
7
  6
CONTINUOUS
 10
255.822579
 20
162.881032
 11
255.822579
 21
171.231032
  0
LINE
  8
22
 62
7
  6
CONTINUOUS
 10
256.122579
 20
171.531032
 11
256.122579
 21
162.581032
  0
LINE
  8
22
 62
7
  6
CONTINUOUS
 10
246.872579
 20
161.356032
 11
257.272579
 21
161.356032
  0
LINE
  8
22
 62
7
  6
CONTINUOUS
 10
257.272579
 20
161.356032
 11
257.572579
 21
161.056032
  0
LINE
  8
22
 62
7
  6
CONTINUOUS
 10
257.572579
 20
161.056032
 11
246.572579
 21
161.056032
  0
LINE
  8
22
 62
7
  6
CONTINUOUS
 10
246.572579
 20
161.056032
 11
246.872579
 21
161.356032
  0
LINE
  8
22
 62
7
  6
CONTINUOUS
 10
257.272579
 20
161.356032
 11
257.272579
 21
172.756032
  0
LINE
  8
22
 62
7
  6
CONTINUOUS
 10
257.272579
 20
172.756032
 11
257.572579
 21
173.056032
  0
LINE
  8
22
 62
7
  6
CONTINUOUS
 10
257.572579
 20
173.056032
 11
257.572579
 21
161.056032
  0
LINE
  8
22
 62
7
  6
CONTINUOUS
 10
246.572579
 20
161.056032
 11
246.572579
 21
173.056032
  0
LINE
  8
22
 62
7
  6
CONTINUOUS
 10
246.572579
 20
173.056032
 11
246.872579
 21
172.756032
  0
LINE
  8
22
 62
7
  6
CONTINUOUS
 10
246.872579
 20
172.756032
 11
246.872579
 21
161.356032
  0
LINE
  8
22
 62
7
  6
CONTINUOUS
 10
257.272579
 20
172.756032
 11
246.872579
 21
172.756032
  0
LINE
  8
22
 62
7
  6
CONTINUOUS
 10
246.572579
 20
173.056032
 11
257.572579
 21
173.056032
  0
LINE
  8
22
 62
7
  6
CONTINUOUS
 10
244.822579
 20
176.056032
 11
243.822579
 21
176.056032
  0
LINE
  8
22
 62
7
  6
CONTINUOUS
 10
252.072579
 20
184.306032
 11
252.072579
 21
183.306032
  0
LINE
  8
22
 62
7
  6
CONTINUOUS
 10
260.322579
 20
176.056032
 11
259.322579
 21
176.056032
  0
LINE
  8
22
 62
7
  6
CONTINUOUS
 10
244.822579
 20
176.056032
 11
244.822579
 21
158.056032
  0
LINE
  8
22
 62
7
  6
CONTINUOUS
 10
259.322579
 20
158.056032
 11
259.322579
 21
176.056032
  0
LINE
  8
22
 62
7
  6
CONTINUOUS
 10
260.322579
 20
176.056032
 11
260.322579
 21
158.056032
  0
LINE
  8
22
 62
7
  6
CONTINUOUS
 10
260.322579
 20
158.056032
 11
259.322579
 21
158.056032
  0
LINE
  8
22
 62
7
  6
CONTINUOUS
 10
244.822579
 20
158.056032
 11
243.822579
 21
158.056032
  0
LINE
  8
22
 62
7
  6
CONTINUOUS
 10
243.822579
 20
158.056032
 11
243.822579
 21
176.056032
  0
LINE
  8
22
 62
7
  6
CONTINUOUS
 10
252.072579
 20
150.806032
 11
252.072579
 21
149.806032
  0
ARC
  8
22
 62
7
  6
CONTINUOUS
 10
252.072579
 20
176.056032
 40
7.250000
 50
0.000000
 51
180.000000
  0
ARC
  8
22
 62
7
  6
CONTINUOUS
 10
252.072579
 20
176.056032
 40
8.250000
 50
0.000000
 51
180.000000
  0
ARC
  8
22
 62
7
  6
CONTINUOUS
 10
252.072579
 20
158.056032
 40
7.250000
 50
180.000000
 51
0.000000
  0
ARC
  8
22
 62
7
  6
CONTINUOUS
 10
252.072579
 20
158.056032
 40
8.250000
 50
180.000000
 51
0.000000
  0
ENDSEC
  0
EOF
